ISO-10303-21;
HEADER;
FILE_DESCRIPTION (( 'STEP AP214' ),
    '1' );
FILE_NAME ('am-3947a-063 375H x 063IN Spacer.STEP',
    '2025-02-06T16:31:44',
    ( '' ),
    ( '' ),
    'SwSTEP 2.0',
    'SolidWorks 2024',
    '' );
FILE_SCHEMA (( 'AUTOMOTIVE_DESIGN' ));
ENDSEC;

DATA;
#1 = VECTOR ( 'NONE', #303, 39.37007874015748143 ) ;
#2 = DIRECTION ( 'NONE',  ( -0.000000000000000000, -0.000000000000000000, -1.000000000000000000 ) ) ;
#3 = VERTEX_POINT ( 'NONE', #247 ) ;
#4 = DIRECTION ( 'NONE',  ( 1.000000000000000000, 0.000000000000000000, 0.000000000000000000 ) ) ;
#5 = ORIENTED_EDGE ( 'NONE', *, *, #227, .T. ) ;
#6 = LINE ( 'NONE', #57, #299 ) ;
#7 = ORIENTED_EDGE ( 'NONE', *, *, #270, .F. ) ;
#8 = ADVANCED_FACE ( 'NONE', ( #190 ), #70, .T. ) ;
#9 = CIRCLE ( 'NONE', #163, 0.3125000000000000000 ) ;
#10 = CARTESIAN_POINT ( 'NONE',  ( 0.3125000000000000000, 3.827021247335478926E-17, 0.06250000000000000000 ) ) ;
#11 = ORIENTED_EDGE ( 'NONE', *, *, #216, .F. ) ;
#12 = ORIENTED_EDGE ( 'NONE', *, *, #119, .T. ) ;
#13 = ORIENTED_EDGE ( 'NONE', *, *, #270, .T. ) ;
#14 = AXIS2_PLACEMENT_3D ( 'NONE', #214, #271, #74 ) ;
#15 = ORIENTED_EDGE ( 'NONE', *, *, #332, .T. ) ;
#16 = PRODUCT_DEFINITION_CONTEXT ( 'detailed design', #295, 'design' ) ;
#17 = DIRECTION ( 'NONE',  ( 1.000000000000000000, 0.000000000000000000, 0.000000000000000000 ) ) ;
#18 = PRESENTATION_STYLE_ASSIGNMENT (( #95 ) ) ;
#19 = LINE ( 'NONE', #326, #230 ) ;
#20 = AXIS2_PLACEMENT_3D ( 'NONE', #79, #331, #201 ) ;
#21 = VECTOR ( 'NONE', #137, 39.37007874015748143 ) ;
#22 = DIRECTION ( 'NONE',  ( 0.8660254037844385966, -0.5000000000000001110, 0.000000000000000000 ) ) ;
#23 = CARTESIAN_POINT ( 'NONE',  ( 0.2170837012152992962, -8.629126648930641522E-21, 0.000000000000000000 ) ) ;
#24 = AXIS2_PLACEMENT_3D ( 'NONE', #44, #245, #324 ) ;
#25 = PLANE ( 'NONE',  #93 ) ;
#26 = CARTESIAN_POINT ( 'NONE',  ( -0.1085418506076496065, -0.1879999999999999727, 0.06250000000000000000 ) ) ;
#27 = ADVANCED_FACE ( 'NONE', ( #241 ), #274, .T. ) ;
#28 = CARTESIAN_POINT ( 'NONE',  ( 0.2170837012152992962, -8.629126648930641522E-21, 0.06250000000000000000 ) ) ;
#29 = LINE ( 'NONE', #84, #88 ) ;
#30 = EDGE_LOOP ( 'NONE', ( #7, #294 ) ) ;
#31 = CARTESIAN_POINT ( 'NONE',  ( 0.1085418506076495232, 0.1880000000000000282, 0.06250000000000000000 ) ) ;
#32 = ORIENTED_EDGE ( 'NONE', *, *, #216, .T. ) ;
#33 = CARTESIAN_POINT ( 'NONE',  ( 0.000000000000000000, 0.000000000000000000, 0.000000000000000000 ) ) ;
#34 = EDGE_CURVE ( 'NONE', #131, #205, #19, .T. ) ;
#35 = VERTEX_POINT ( 'NONE', #269 ) ;
#36 = CARTESIAN_POINT ( 'NONE',  ( -0.1085418506076496065, -0.1879999999999999727, 0.06250000000000000000 ) ) ;
#37 = AXIS2_PLACEMENT_3D ( 'NONE', #100, #178, #76 ) ;
#38 = CARTESIAN_POINT ( 'NONE',  ( 0.2170837012152992962, -8.629126648930641522E-21, 0.06250000000000000000 ) ) ;
#39 = EDGE_CURVE ( 'NONE', #141, #35, #80, .T. ) ;
#40 = MANIFOLD_SOLID_BREP ( 'Boss-Extrude1', #97 ) ;
#41 = ORIENTED_EDGE ( 'NONE', *, *, #114, .T. ) ;
#42 = ORIENTED_EDGE ( 'NONE', *, *, #265, .T. ) ;
#43 = PRODUCT_DEFINITION_SHAPE ( 'NONE', 'NONE',  #237 ) ;
#44 = CARTESIAN_POINT ( 'NONE',  ( 0.000000000000000000, 0.000000000000000000, 0.06250000000000000000 ) ) ;
#45 = PRODUCT_CONTEXT ( 'NONE', #152, 'mechanical' ) ;
#46 = ORIENTED_EDGE ( 'NONE', *, *, #256, .F. ) ;
#47 = EDGE_CURVE ( 'NONE', #233, #191, #171, .T. ) ;
#48 = SURFACE_STYLE_FILL_AREA ( #323 ) ;
#49 = VECTOR ( 'NONE', #127, 39.37007874015748143 ) ;
#50 = CARTESIAN_POINT ( 'NONE',  ( 0.1085418506076496203, -0.1879999999999999727, 0.000000000000000000 ) ) ;
#51 = CIRCLE ( 'NONE', #202, 0.3125000000000000000 ) ;
#52 = EDGE_CURVE ( 'NONE', #59, #92, #148, .T. ) ;
#53 = LINE ( 'NONE', #56, #143 ) ;
#54 = DIRECTION ( 'NONE',  ( -1.000000000000000000, 0.000000000000000000, 0.000000000000000000 ) ) ;
#55 = PRODUCT_RELATED_PRODUCT_CATEGORY ( 'part', '', ( #69 ) ) ;
#56 = CARTESIAN_POINT ( 'NONE',  ( 0.1085418506076495232, 0.1880000000000000282, 0.06250000000000000000 ) ) ;
#57 = CARTESIAN_POINT ( 'NONE',  ( -0.1085418506076496065, -0.1879999999999999727, 0.000000000000000000 ) ) ;
#58 = DIRECTION ( 'NONE',  ( -0.8660254037844383745, -0.5000000000000004441, 0.000000000000000000 ) ) ;
#59 = VERTEX_POINT ( 'NONE', #255 ) ;
#60 = ADVANCED_FACE ( 'NONE', ( #174 ), #197, .T. ) ;
#61 = CARTESIAN_POINT ( 'NONE',  ( 0.000000000000000000, 0.000000000000000000, 0.06250000000000000000 ) ) ;
#62 = VERTEX_POINT ( 'NONE', #277 ) ;
#63 = DIRECTION ( 'NONE',  ( 0.000000000000000000, 0.000000000000000000, 1.000000000000000000 ) ) ;
#64 = EDGE_LOOP ( 'NONE', ( #109, #170, #117, #239 ) ) ;
#65 = DIRECTION ( 'NONE',  ( 0.5000000000000001110, 0.8660254037844385966, 0.000000000000000000 ) ) ;
#66 = VERTEX_POINT ( 'NONE', #252 ) ;
#67 = VECTOR ( 'NONE', #306, 39.37007874015748143 ) ;
#68 =( NAMED_UNIT ( * ) PLANE_ANGLE_UNIT ( ) SI_UNIT ( $, .RADIAN. ) );
#69 = PRODUCT ( 'am-3947a-063 375H x 063IN Spacer', 'am-3947a-063 375H x 063IN Spacer', '', ( #45 ) ) ;
#70 = PLANE ( 'NONE',  #14 ) ;
#71 = EDGE_LOOP ( 'NONE', ( #129, #319, #133, #140 ) ) ;
#72 = AXIS2_PLACEMENT_3D ( 'NONE', #219, #75, #118 ) ;
#73 = ADVANCED_FACE ( 'NONE', ( #149 ), #180, .T. ) ;
#74 = DIRECTION ( 'NONE',  ( 0.000000000000000000, -0.000000000000000000, -1.000000000000000000 ) ) ;
#75 = DIRECTION ( 'NONE',  ( 0.000000000000000000, 0.000000000000000000, 1.000000000000000000 ) ) ;
#76 = DIRECTION ( 'NONE',  ( 1.000000000000000000, 0.000000000000000000, 0.000000000000000000 ) ) ;
#77 = LINE ( 'NONE', #278, #209 ) ;
#78 = PLANE ( 'NONE',  #322 ) ;
#79 = CARTESIAN_POINT ( 'NONE',  ( -0.2170837012152992962, -6.822844948385385685E-21, 0.06250000000000000000 ) ) ;
#80 = CIRCLE ( 'NONE', #72, 0.3125000000000000000 ) ;
#81 = AXIS2_PLACEMENT_3D ( 'NONE', #244, #195, #217 ) ;
#82 = VECTOR ( 'NONE', #128, 39.37007874015748143 ) ;
#83 = CARTESIAN_POINT ( 'NONE',  ( 0.000000000000000000, 0.000000000000000000, 0.000000000000000000 ) ) ;
#84 = CARTESIAN_POINT ( 'NONE',  ( -0.1085418506076496065, -0.1879999999999999727, 0.06250000000000000000 ) ) ;
#85 = ORIENTED_EDGE ( 'NONE', *, *, #39, .F. ) ;
#86 = DIRECTION ( 'NONE',  ( -0.000000000000000000, -0.000000000000000000, -1.000000000000000000 ) ) ;
#87 = PRODUCT_DEFINITION_FORMATION_WITH_SPECIFIED_SOURCE ( 'ANY', '', #69, .NOT_KNOWN. ) ;
#88 = VECTOR ( 'NONE', #4, 39.37007874015748143 ) ;
#89 = CARTESIAN_POINT ( 'NONE',  ( -0.3125000000000000000, 0.000000000000000000, 0.06250000000000000000 ) ) ;
#90 = ORIENTED_EDGE ( 'NONE', *, *, #108, .F. ) ;
#91 = PLANE ( 'NONE',  #181 ) ;
#92 = VERTEX_POINT ( 'NONE', #276 ) ;
#93 = AXIS2_PLACEMENT_3D ( 'NONE', #26, #145, #223 ) ;
#94 = ORIENTED_EDGE ( 'NONE', *, *, #316, .F. ) ;
#95 = SURFACE_STYLE_USAGE ( .BOTH. , #142 ) ;
#96 = VERTEX_POINT ( 'NONE', #50 ) ;
#97 = CLOSED_SHELL ( 'NONE', ( #27, #222, #249, #296, #193, #260, #8, #60, #73, #102 ) ) ;
#98 = ORIENTED_EDGE ( 'NONE', *, *, #176, .T. ) ;
#99 = VERTEX_POINT ( 'NONE', #305 ) ;
#100 = CARTESIAN_POINT ( 'NONE',  ( 0.000000000000000000, 0.000000000000000000, 0.000000000000000000 ) ) ;
#101 = FACE_OUTER_BOUND ( 'NONE', #135, .T. ) ;
#102 = ADVANCED_FACE ( 'NONE', ( #101 ), #25, .T. ) ;
#103 = CARTESIAN_POINT ( 'NONE',  ( -0.3125000000000000000, 0.000000000000000000, 0.06250000000000000000 ) ) ;
#104 = ADVANCED_BREP_SHAPE_REPRESENTATION ( 'am-3947a-063 375H x 063IN Spacer', ( #40, #81 ), #168 ) ;
#105 = CARTESIAN_POINT ( 'NONE',  ( 0.1085418506076496203, -0.1879999999999999727, 0.06250000000000000000 ) ) ;
#106 = VECTOR ( 'NONE', #313, 39.37007874015748143 ) ;
#107 = FACE_OUTER_BOUND ( 'NONE', #240, .T. ) ;
#108 = EDGE_CURVE ( 'NONE', #161, #3, #280, .T. ) ;
#109 = ORIENTED_EDGE ( 'NONE', *, *, #176, .F. ) ;
#110 = DIRECTION ( 'NONE',  ( 0.5000000000000004441, -0.8660254037844383745, 0.000000000000000000 ) ) ;
#111 = MECHANICAL_DESIGN_GEOMETRIC_PRESENTATION_REPRESENTATION (  '', ( #254 ), #328 ) ;
#112 = DIRECTION ( 'NONE',  ( 1.000000000000000000, 0.000000000000000000, 0.000000000000000000 ) ) ;
#113 = ORIENTED_EDGE ( 'NONE', *, *, #301, .T. ) ;
#114 = EDGE_CURVE ( 'NONE', #233, #96, #257, .T. ) ;
#115 = LINE ( 'NONE', #289, #21 ) ;
#116 = ORIENTED_EDGE ( 'NONE', *, *, #321, .F. ) ;
#117 = ORIENTED_EDGE ( 'NONE', *, *, #136, .T. ) ;
#118 = DIRECTION ( 'NONE',  ( 1.000000000000000000, 0.000000000000000000, 0.000000000000000000 ) ) ;
#119 = EDGE_CURVE ( 'NONE', #286, #161, #53, .T. ) ;
#120 = LENGTH_MEASURE_WITH_UNIT ( LENGTH_MEASURE( 0.02539999999999999897 ), #242 );
#121 = DIRECTION ( 'NONE',  ( 0.5000000000000001110, -0.8660254037844385966, 0.000000000000000000 ) ) ;
#122 =( NAMED_UNIT ( * ) PLANE_ANGLE_UNIT ( ) SI_UNIT ( $, .RADIAN. ) );
#123 =( CONVERSION_BASED_UNIT ( 'INCH', #120 ) LENGTH_UNIT ( ) NAMED_UNIT ( #218 ) );
#124 =( NAMED_UNIT ( * ) SI_UNIT ( $, .STERADIAN. ) SOLID_ANGLE_UNIT ( ) );
#125 = DIRECTION ( 'NONE',  ( 0.5000000000000001110, 0.8660254037844385966, 0.000000000000000000 ) ) ;
#126 = DIRECTION ( 'NONE',  ( -0.5000000000000001110, -0.8660254037844385966, 0.000000000000000000 ) ) ;
#127 = DIRECTION ( 'NONE',  ( -0.000000000000000000, -0.000000000000000000, -1.000000000000000000 ) ) ;
#128 = DIRECTION ( 'NONE',  ( -0.000000000000000000, -0.000000000000000000, -1.000000000000000000 ) ) ;
#129 = ORIENTED_EDGE ( 'NONE', *, *, #243, .F. ) ;
#130 = DIRECTION ( 'NONE',  ( 1.000000000000000000, 0.000000000000000000, -0.000000000000000000 ) ) ;
#131 = VERTEX_POINT ( 'NONE', #330 ) ;
#132 = CYLINDRICAL_SURFACE ( 'NONE', #144, 0.3125000000000000000 ) ;
#133 = ORIENTED_EDGE ( 'NONE', *, *, #47, .T. ) ;
#134 = DIRECTION ( 'NONE',  ( -0.000000000000000000, -0.000000000000000000, -1.000000000000000000 ) ) ;
#135 = EDGE_LOOP ( 'NONE', ( #46, #290, #32, #41 ) ) ;
#136 = EDGE_CURVE ( 'NONE', #191, #286, #228, .T. ) ;
#137 = DIRECTION ( 'NONE',  ( 0.5000000000000001110, -0.8660254037844385966, 0.000000000000000000 ) ) ;
#138 = ORIENTED_EDGE ( 'NONE', *, *, #34, .F. ) ;
#139 = ORIENTED_EDGE ( 'NONE', *, *, #279, .F. ) ;
#140 = ORIENTED_EDGE ( 'NONE', *, *, #169, .T. ) ;
#141 = VERTEX_POINT ( 'NONE', #103 ) ;
#142 = SURFACE_SIDE_STYLE ('',( #48 ) ) ;
#143 = VECTOR ( 'NONE', #54, 39.37007874015748143 ) ;
#144 = AXIS2_PLACEMENT_3D ( 'NONE', #153, #203, #309 ) ;
#145 = DIRECTION ( 'NONE',  ( 0.000000000000000000, 1.000000000000000000, 0.000000000000000000 ) ) ;
#146 = DIRECTION ( 'NONE',  ( -0.5000000000000004441, 0.8660254037844383745, 0.000000000000000000 ) ) ;
#147 = DIRECTION ( 'NONE',  ( -0.8660254037844385966, 0.5000000000000001110, 0.000000000000000000 ) ) ;
#148 = CIRCLE ( 'NONE', #37, 0.3125000000000000000 ) ;
#149 = FACE_OUTER_BOUND ( 'NONE', #293, .T. ) ;
#150 = AXIS2_PLACEMENT_3D ( 'NONE', #38, #58, #110 ) ;
#151 = LINE ( 'NONE', #333, #189 ) ;
#152 = APPLICATION_CONTEXT ( 'automotive_design' ) ;
#153 = CARTESIAN_POINT ( 'NONE',  ( 0.000000000000000000, 0.000000000000000000, 0.06250000000000000000 ) ) ;
#154 = ORIENTED_EDGE ( 'NONE', *, *, #243, .T. ) ;
#155 = DIRECTION ( 'NONE',  ( -0.000000000000000000, -0.000000000000000000, -1.000000000000000000 ) ) ;
#156 = EDGE_LOOP ( 'NONE', ( #315, #267, #11, #139, #90, #302 ) ) ;
#157 = CARTESIAN_POINT ( 'NONE',  ( -0.1085418506076496065, 0.1880000000000000282, 0.06250000000000000000 ) ) ;
#158 = EDGE_LOOP ( 'NONE', ( #94, #318, #12, #42 ) ) ;
#159 = CARTESIAN_POINT ( 'NONE',  ( 0.1085418506076495232, 0.1880000000000000282, 0.06250000000000000000 ) ) ;
#160 = EDGE_CURVE ( 'NONE', #3, #131, #151, .T. ) ;
#161 = VERTEX_POINT ( 'NONE', #304 ) ;
#162 = LINE ( 'NONE', #208, #272 ) ;
#163 = AXIS2_PLACEMENT_3D ( 'NONE', #33, #284, #17 ) ;
#164 = ORIENTED_EDGE ( 'NONE', *, *, #39, .T. ) ;
#165 = EDGE_LOOP ( 'NONE', ( #220, #166, #297, #213 ) ) ;
#166 = ORIENTED_EDGE ( 'NONE', *, *, #321, .T. ) ;
#167 =( CONVERSION_BASED_UNIT ( 'INCH', #175 ) LENGTH_UNIT ( ) NAMED_UNIT ( #221 ) );
#168 =( GEOMETRIC_REPRESENTATION_CONTEXT ( 3 ) GLOBAL_UNCERTAINTY_ASSIGNED_CONTEXT ( ( #210 ) ) GLOBAL_UNIT_ASSIGNED_CONTEXT ( ( #167, #122, #325 ) ) REPRESENTATION_CONTEXT ( 'NONE', 'WORKASPACE' ) );
#169 = EDGE_CURVE ( 'NONE', #191, #184, #253, .T. ) ;
#170 = ORIENTED_EDGE ( 'NONE', *, *, #169, .F. ) ;
#171 = LINE ( 'NONE', #105, #281 ) ;
#172 = APPLICATION_PROTOCOL_DEFINITION ( 'draft international standard', 'automotive_design', 1998, #152 ) ;
#173 = CARTESIAN_POINT ( 'NONE',  ( -0.1085418506076496065, 0.1880000000000000282, 0.06250000000000000000 ) ) ;
#174 = FACE_OUTER_BOUND ( 'NONE', #194, .T. ) ;
#175 = LENGTH_MEASURE_WITH_UNIT ( LENGTH_MEASURE( 0.02539999999999999897 ), #273 );
#176 = EDGE_CURVE ( 'NONE', #184, #99, #77, .T. ) ;
#177 = CARTESIAN_POINT ( 'NONE',  ( 0.1085418506076496203, -0.1879999999999999727, 0.06250000000000000000 ) ) ;
#178 = DIRECTION ( 'NONE',  ( 0.000000000000000000, 0.000000000000000000, 1.000000000000000000 ) ) ;
#179 = COLOUR_RGB ( '',0.7921568627450980005, 0.8196078431372548767, 0.9333333333333333481 ) ;
#180 = PLANE ( 'NONE',  #20 ) ;
#181 = AXIS2_PLACEMENT_3D ( 'NONE', #61, #187, #287 ) ;
#182 = DIRECTION ( 'NONE',  ( -0.5000000000000001110, -0.8660254037844385966, 0.000000000000000000 ) ) ;
#183 = LINE ( 'NONE', #89, #82 ) ;
#184 = VERTEX_POINT ( 'NONE', #23 ) ;
#185 = CARTESIAN_POINT ( 'NONE',  ( 0.000000000000000000, 0.000000000000000000, 0.06250000000000000000 ) ) ;
#186 = LINE ( 'NONE', #36, #225 ) ;
#187 = DIRECTION ( 'NONE',  ( 0.000000000000000000, 0.000000000000000000, 1.000000000000000000 ) ) ;
#188 = ORIENTED_EDGE ( 'NONE', *, *, #310, .T. ) ;
#189 = VECTOR ( 'NONE', #327, 39.37007874015748143 ) ;
#190 = FACE_OUTER_BOUND ( 'NONE', #158, .T. ) ;
#191 = VERTEX_POINT ( 'NONE', #224 ) ;
#192 = ORIENTED_EDGE ( 'NONE', *, *, #160, .F. ) ;
#193 = ADVANCED_FACE ( 'NONE', ( #329 ), #78, .T. ) ;
#194 = EDGE_LOOP ( 'NONE', ( #288, #196, #236, #207 ) ) ;
#195 = DIRECTION ( 'NONE',  ( 0.000000000000000000, 0.000000000000000000, 1.000000000000000000 ) ) ;
#196 = ORIENTED_EDGE ( 'NONE', *, *, #265, .F. ) ;
#197 = PLANE ( 'NONE',  #307 ) ;
#198 = AXIS2_PLACEMENT_3D ( 'NONE', #83, #258, #130 ) ;
#199 = CARTESIAN_POINT ( 'NONE',  ( -0.1085418506076496065, 0.1880000000000000282, 0.06250000000000000000 ) ) ;
#200 = CARTESIAN_POINT ( 'NONE',  ( 0.2170837012152992962, -8.629126648930641522E-21, 0.06250000000000000000 ) ) ;
#201 = DIRECTION ( 'NONE',  ( -0.5000000000000001110, 0.8660254037844385966, 0.000000000000000000 ) ) ;
#202 = AXIS2_PLACEMENT_3D ( 'NONE', #185, #63, #112 ) ;
#203 = DIRECTION ( 'NONE',  ( -0.000000000000000000, -0.000000000000000000, -1.000000000000000000 ) ) ;
#204 = PLANE ( 'NONE',  #198 ) ;
#205 = VERTEX_POINT ( 'NONE', #226 ) ;
#206 = CARTESIAN_POINT ( 'NONE',  ( 0.1085418506076495232, 0.1880000000000000282, 0.000000000000000000 ) ) ;
#207 = ORIENTED_EDGE ( 'NONE', *, *, #160, .T. ) ;
#208 = CARTESIAN_POINT ( 'NONE',  ( 0.1085418506076496203, -0.1879999999999999727, 0.000000000000000000 ) ) ;
#209 = VECTOR ( 'NONE', #146, 39.37007874015748143 ) ;
#210 = UNCERTAINTY_MEASURE_WITH_UNIT (LENGTH_MEASURE( 1.000000000000000082E-05 ), #167, 'distance_accuracy_value', 'NONE');
#211 = FACE_OUTER_BOUND ( 'NONE', #30, .T. ) ;
#212 = EDGE_CURVE ( 'NONE', #286, #99, #311, .T. ) ;
#213 = ORIENTED_EDGE ( 'NONE', *, *, #227, .F. ) ;
#214 = CARTESIAN_POINT ( 'NONE',  ( 0.1085418506076495232, 0.1880000000000000282, 0.06250000000000000000 ) ) ;
#215 = UNCERTAINTY_MEASURE_WITH_UNIT (LENGTH_MEASURE( 1.000000000000000082E-05 ), #123, 'distance_accuracy_value', 'NONE');
#216 = EDGE_CURVE ( 'NONE', #66, #233, #29, .T. ) ;
#217 = DIRECTION ( 'NONE',  ( 1.000000000000000000, 0.000000000000000000, 0.000000000000000000 ) ) ;
#218 = DIMENSIONAL_EXPONENTS ( 1.000000000000000000, 0.000000000000000000, 0.000000000000000000, 0.000000000000000000, 0.000000000000000000, 0.000000000000000000, 0.000000000000000000 ) ;
#219 = CARTESIAN_POINT ( 'NONE',  ( 0.000000000000000000, 0.000000000000000000, 0.06250000000000000000 ) ) ;
#220 = ORIENTED_EDGE ( 'NONE', *, *, #310, .F. ) ;
#221 = DIMENSIONAL_EXPONENTS ( 1.000000000000000000, 0.000000000000000000, 0.000000000000000000, 0.000000000000000000, 0.000000000000000000, 0.000000000000000000, 0.000000000000000000 ) ;
#222 = ADVANCED_FACE ( 'NONE', ( #107, #238 ), #91, .T. ) ;
#223 = DIRECTION ( 'NONE',  ( 0.000000000000000000, -0.000000000000000000, 1.000000000000000000 ) ) ;
#224 = CARTESIAN_POINT ( 'NONE',  ( 0.2170837012152992962, -8.629126648930641522E-21, 0.06250000000000000000 ) ) ;
#225 = VECTOR ( 'NONE', #134, 39.37007874015748143 ) ;
#226 = CARTESIAN_POINT ( 'NONE',  ( -0.1085418506076496065, -0.1879999999999999727, 0.000000000000000000 ) ) ;
#227 = EDGE_CURVE ( 'NONE', #141, #92, #183, .T. ) ;
#228 = LINE ( 'NONE', #200, #1 ) ;
#229 = DIRECTION ( 'NONE',  ( 0.5000000000000001110, 0.8660254037844385966, 0.000000000000000000 ) ) ;
#230 = VECTOR ( 'NONE', #121, 39.37007874015748143 ) ;
#231 = FACE_OUTER_BOUND ( 'NONE', #64, .T. ) ;
#232 = LINE ( 'NONE', #157, #268 ) ;
#233 = VERTEX_POINT ( 'NONE', #234 ) ;
#234 = CARTESIAN_POINT ( 'NONE',  ( 0.1085418506076496203, -0.1879999999999999727, 0.06250000000000000000 ) ) ;
#235 = ORIENTED_EDGE ( 'NONE', *, *, #316, .T. ) ;
#236 = ORIENTED_EDGE ( 'NONE', *, *, #108, .T. ) ;
#237 = PRODUCT_DEFINITION ( 'UNKNOWN', '', #87, #16 ) ;
#238 = FACE_BOUND ( 'NONE', #156, .T. ) ;
#239 = ORIENTED_EDGE ( 'NONE', *, *, #212, .T. ) ;
#240 = EDGE_LOOP ( 'NONE', ( #164, #188 ) ) ;
#241 = FACE_OUTER_BOUND ( 'NONE', #165, .T. ) ;
#242 =( LENGTH_UNIT ( ) NAMED_UNIT ( * ) SI_UNIT ( $, .METRE. ) );
#243 = EDGE_CURVE ( 'NONE', #96, #184, #162, .T. ) ;
#244 = CARTESIAN_POINT ( 'NONE',  ( 0.000000000000000000, 0.000000000000000000, 0.000000000000000000 ) ) ;
#245 = DIRECTION ( 'NONE',  ( -0.000000000000000000, -0.000000000000000000, -1.000000000000000000 ) ) ;
#246 = VECTOR ( 'NONE', #251, 39.37007874015748143 ) ;
#247 = CARTESIAN_POINT ( 'NONE',  ( -0.2170837012152992962, -6.822844948385385685E-21, 0.06250000000000000000 ) ) ;
#248 = APPLICATION_PROTOCOL_DEFINITION ( 'draft international standard', 'automotive_design', 1998, #295 ) ;
#249 = ADVANCED_FACE ( 'NONE', ( #211, #285 ), #204, .F. ) ;
#250 = VECTOR ( 'NONE', #182, 39.37007874015748143 ) ;
#251 = DIRECTION ( 'NONE',  ( -0.000000000000000000, -0.000000000000000000, -1.000000000000000000 ) ) ;
#252 = CARTESIAN_POINT ( 'NONE',  ( -0.1085418506076496065, -0.1879999999999999727, 0.06250000000000000000 ) ) ;
#253 = LINE ( 'NONE', #28, #49 ) ;
#254 = STYLED_ITEM ( 'NONE', ( #18 ), #40 ) ;
#255 = CARTESIAN_POINT ( 'NONE',  ( 0.3125000000000000000, 3.827021247335478926E-17, 0.000000000000000000 ) ) ;
#256 = EDGE_CURVE ( 'NONE', #205, #96, #6, .T. ) ;
#257 = LINE ( 'NONE', #283, #246 ) ;
#258 = DIRECTION ( 'NONE',  ( 0.000000000000000000, 0.000000000000000000, 1.000000000000000000 ) ) ;
#259 = ORIENTED_EDGE ( 'NONE', *, *, #34, .T. ) ;
#260 = ADVANCED_FACE ( 'NONE', ( #231 ), #314, .T. ) ;
#261 = FACE_OUTER_BOUND ( 'NONE', #320, .T. ) ;
#262 = LINE ( 'NONE', #10, #308 ) ;
#263 = EDGE_LOOP ( 'NONE', ( #154, #98, #235, #113, #259, #298 ) ) ;
#264 = LINE ( 'NONE', #206, #106 ) ;
#265 = EDGE_CURVE ( 'NONE', #161, #62, #232, .T. ) ;
#266 = LINE ( 'NONE', #317, #250 ) ;
#267 = ORIENTED_EDGE ( 'NONE', *, *, #47, .F. ) ;
#268 = VECTOR ( 'NONE', #155, 39.37007874015748143 ) ;
#269 = CARTESIAN_POINT ( 'NONE',  ( 0.3125000000000000000, 3.827021247335478926E-17, 0.06250000000000000000 ) ) ;
#270 = EDGE_CURVE ( 'NONE', #92, #59, #9, .T. ) ;
#271 = DIRECTION ( 'NONE',  ( 0.000000000000000000, -1.000000000000000000, 0.000000000000000000 ) ) ;
#272 = VECTOR ( 'NONE', #65, 39.37007874015748143 ) ;
#273 =( LENGTH_UNIT ( ) NAMED_UNIT ( * ) SI_UNIT ( $, .METRE. ) );
#274 = CYLINDRICAL_SURFACE ( 'NONE', #24, 0.3125000000000000000 ) ;
#275 = FILL_AREA_STYLE_COLOUR ( '', #179 ) ;
#276 = CARTESIAN_POINT ( 'NONE',  ( -0.3125000000000000000, 0.000000000000000000, 0.000000000000000000 ) ) ;
#277 = CARTESIAN_POINT ( 'NONE',  ( -0.1085418506076496065, 0.1880000000000000282, 0.000000000000000000 ) ) ;
#278 = CARTESIAN_POINT ( 'NONE',  ( 0.2170837012152992962, -8.629126648930641522E-21, 0.000000000000000000 ) ) ;
#279 = EDGE_CURVE ( 'NONE', #3, #66, #115, .T. ) ;
#280 = LINE ( 'NONE', #199, #67 ) ;
#281 = VECTOR ( 'NONE', #229, 39.37007874015748143 ) ;
#282 = VECTOR ( 'NONE', #2, 39.37007874015748143 ) ;
#283 = CARTESIAN_POINT ( 'NONE',  ( 0.1085418506076496203, -0.1879999999999999727, 0.06250000000000000000 ) ) ;
#284 = DIRECTION ( 'NONE',  ( 0.000000000000000000, 0.000000000000000000, 1.000000000000000000 ) ) ;
#285 = FACE_BOUND ( 'NONE', #263, .T. ) ;
#286 = VERTEX_POINT ( 'NONE', #159 ) ;
#287 = DIRECTION ( 'NONE',  ( 1.000000000000000000, 0.000000000000000000, -0.000000000000000000 ) ) ;
#288 = ORIENTED_EDGE ( 'NONE', *, *, #301, .F. ) ;
#289 = CARTESIAN_POINT ( 'NONE',  ( -0.2170837012152992962, -6.822844948385385685E-21, 0.06250000000000000000 ) ) ;
#290 = ORIENTED_EDGE ( 'NONE', *, *, #332, .F. ) ;
#291 = DIRECTION ( 'NONE',  ( 1.000000000000000000, 0.000000000000000000, 0.000000000000000000 ) ) ;
#292 = PRESENTATION_LAYER_ASSIGNMENT (  '', '', ( #254 ) ) ;
#293 = EDGE_LOOP ( 'NONE', ( #138, #192, #312, #15 ) ) ;
#294 = ORIENTED_EDGE ( 'NONE', *, *, #52, .F. ) ;
#295 = APPLICATION_CONTEXT ( 'automotive_design' ) ;
#296 = ADVANCED_FACE ( 'NONE', ( #261 ), #132, .T. ) ;
#297 = ORIENTED_EDGE ( 'NONE', *, *, #52, .T. ) ;
#298 = ORIENTED_EDGE ( 'NONE', *, *, #256, .T. ) ;
#299 = VECTOR ( 'NONE', #291, 39.37007874015748143 ) ;
#300 = SHAPE_DEFINITION_REPRESENTATION ( #43, #104 ) ;
#301 = EDGE_CURVE ( 'NONE', #62, #131, #266, .T. ) ;
#302 = ORIENTED_EDGE ( 'NONE', *, *, #119, .F. ) ;
#303 = DIRECTION ( 'NONE',  ( -0.5000000000000004441, 0.8660254037844383745, 0.000000000000000000 ) ) ;
#304 = CARTESIAN_POINT ( 'NONE',  ( -0.1085418506076496065, 0.1880000000000000282, 0.06250000000000000000 ) ) ;
#305 = CARTESIAN_POINT ( 'NONE',  ( 0.1085418506076495232, 0.1880000000000000282, 0.000000000000000000 ) ) ;
#306 = DIRECTION ( 'NONE',  ( -0.5000000000000001110, -0.8660254037844385966, 0.000000000000000000 ) ) ;
#307 = AXIS2_PLACEMENT_3D ( 'NONE', #173, #22, #125 ) ;
#308 = VECTOR ( 'NONE', #86, 39.37007874015748143 ) ;
#309 = DIRECTION ( 'NONE',  ( -1.000000000000000000, 0.000000000000000000, 0.000000000000000000 ) ) ;
#310 = EDGE_CURVE ( 'NONE', #35, #141, #51, .T. ) ;
#311 = LINE ( 'NONE', #31, #282 ) ;
#312 = ORIENTED_EDGE ( 'NONE', *, *, #279, .T. ) ;
#313 = DIRECTION ( 'NONE',  ( -1.000000000000000000, 0.000000000000000000, 0.000000000000000000 ) ) ;
#314 = PLANE ( 'NONE',  #150 ) ;
#315 = ORIENTED_EDGE ( 'NONE', *, *, #136, .F. ) ;
#316 = EDGE_CURVE ( 'NONE', #99, #62, #264, .T. ) ;
#317 = CARTESIAN_POINT ( 'NONE',  ( -0.1085418506076496065, 0.1880000000000000282, 0.000000000000000000 ) ) ;
#318 = ORIENTED_EDGE ( 'NONE', *, *, #212, .F. ) ;
#319 = ORIENTED_EDGE ( 'NONE', *, *, #114, .F. ) ;
#320 = EDGE_LOOP ( 'NONE', ( #116, #85, #5, #13 ) ) ;
#321 = EDGE_CURVE ( 'NONE', #35, #59, #262, .T. ) ;
#322 = AXIS2_PLACEMENT_3D ( 'NONE', #177, #147, #126 ) ;
#323 = FILL_AREA_STYLE ('',( #275 ) ) ;
#324 = DIRECTION ( 'NONE',  ( -1.000000000000000000, 0.000000000000000000, 0.000000000000000000 ) ) ;
#325 =( NAMED_UNIT ( * ) SI_UNIT ( $, .STERADIAN. ) SOLID_ANGLE_UNIT ( ) );
#326 = CARTESIAN_POINT ( 'NONE',  ( -0.2170837012152992962, -6.822844948385385685E-21, 0.000000000000000000 ) ) ;
#327 = DIRECTION ( 'NONE',  ( -0.000000000000000000, -0.000000000000000000, -1.000000000000000000 ) ) ;
#328 =( GEOMETRIC_REPRESENTATION_CONTEXT ( 3 ) GLOBAL_UNCERTAINTY_ASSIGNED_CONTEXT ( ( #215 ) ) GLOBAL_UNIT_ASSIGNED_CONTEXT ( ( #123, #68, #124 ) ) REPRESENTATION_CONTEXT ( 'NONE', 'WORKASPACE' ) );
#329 = FACE_OUTER_BOUND ( 'NONE', #71, .T. ) ;
#330 = CARTESIAN_POINT ( 'NONE',  ( -0.2170837012152992962, -6.822844948385385685E-21, 0.000000000000000000 ) ) ;
#331 = DIRECTION ( 'NONE',  ( 0.8660254037844385966, 0.5000000000000001110, -0.000000000000000000 ) ) ;
#332 = EDGE_CURVE ( 'NONE', #66, #205, #186, .T. ) ;
#333 = CARTESIAN_POINT ( 'NONE',  ( -0.2170837012152992962, -6.822844948385385685E-21, 0.06250000000000000000 ) ) ;
ENDSEC;
END-ISO-10303-21;
